  0
SECTION
  2
HEADER
  9
$ACADVER
  1
AC1015
  9
$ACADMAINTVER
 70
     6
  9
$DWGCODEPAGE
  3
ANSI_1254
  9
$INSBASE
 10
0.0
 20
0.0
 30
0.0
  9
$EXTMIN
 10
0.0
 20
0.0
 30
0.0
  9
$EXTMAX
 10
279.4
 20
215.9
 30
0.0
  9
$LIMMIN
 10
0.0
 20
0.0
  9
$LIMMAX
 10
279.4
 20
215.9
  9
$ORTHOMODE
 70
     0
  9
$REGENMODE
 70
     1
  9
$FILLMODE
 70
     1
  9
$QTEXTMODE
 70
     0
  9
$MIRRTEXT
 70
     1
  9
$LTSCALE
 40
1.0
  9
$ATTMODE
 70
     1
  9
$TEXTSIZE
 40
3.5
  9
$TRACEWID
 40
1.0
  9
$TEXTSTYLE
  7
Standard
  9
$CLAYER
  8
0
  9
$CELTYPE
  6
ByLayer
  9
$CECOLOR
 62
   256
  9
$CELTSCALE
 40
1.0
  9
$DISPSILH
 70
     0
  9
$DIMSCALE
 40
1.0
  9
$DIMASZ
 40
3.5
  9
$DIMEXO
 40
1.0
  9
$DIMDLI
 40
3.75
  9
$DIMRND
 40
0.0
  9
$DIMDLE
 40
0.0
  9
$DIMEXE
 40
1.0
  9
$DIMTP
 40
0.0
  9
$DIMTM
 40
0.0
  9
$DIMTXT
 40
3.5
  9
$DIMCEN
 40
2.5
  9
$DIMTSZ
 40
0.0
  9
$DIMTOL
 70
     0
  9
$DIMLIM
 70
     0
  9
$DIMTIH
 70
     1
  9
$DIMTOH
 70
     1
  9
$DIMSE1
 70
     0
  9
$DIMSE2
 70
     0
  9
$DIMTAD
 70
     1
  9
$DIMZIN
 70
     0
  9
$DIMBLK
  1

  9
$DIMASO
 70
     1
  9
$DIMSHO
 70
     1
  9
$DIMPOST
  1

  9
$DIMAPOST
  1

  9
$DIMALT
 70
     0
  9
$DIMALTD
 70
     3
  9
$DIMALTF
 40
0.0393700787
  9
$DIMLFAC
 40
1.0
  9
$DIMTOFL
 70
     1
  9
$DIMTVP
 40
0.0
  9
$DIMTIX
 70
     0
  9
$DIMSOXD
 70
     0
  9
$DIMSAH
 70
     0
  9
$DIMBLK1
  1

  9
$DIMBLK2
  1

  9
$DIMSTYLE
  2
ISO-25
  9
$DIMCLRD
 70
     0
  9
$DIMCLRE
 70
     0
  9
$DIMCLRT
 70
     0
  9
$DIMTFAC
 40
1.0
  9
$DIMGAP
 40
1.524
  9
$DIMJUST
 70
     0
  9
$DIMSD1
 70
     0
  9
$DIMSD2
 70
     0
  9
$DIMTOLJ
 70
     0
  9
$DIMTZIN
 70
     0
  9
$DIMALTZ
 70
     0
  9
$DIMALTTZ
 70
     0
  9
$DIMUPT
 70
     0
  9
$DIMDEC
 70
     2
  9
$DIMTDEC
 70
     2
  9
$DIMALTU
 70
     2
  9
$DIMALTTD
 70
     3
  9
$DIMTXSTY
  7
Standard
  9
$DIMAUNIT
 70
     0
  9
$DIMADEC
 70
     2
  9
$DIMALTRND
 40
0.0
  9
$DIMAZIN
 70
     0
  9
$DIMDSEP
 70
    44
  9
$DIMATFIT
 70
     3
  9
$DIMFRAC
 70
     0
  9
$DIMLDRBLK
  1

  9
$DIMLUNIT
 70
     2
  9
$DIMLWD
 70
    -2
  9
$DIMLWE
 70
    -2
  9
$DIMTMOVE
 70
     0
  9
$LUNITS
 70
     2
  9
$LUPREC
 70
     2
  9
$SKETCHINC
 40
1.0
  9
$FILLETRAD
 40
10.0
  9
$AUNITS
 70
     0
  9
$AUPREC
 70
     2
  9
$MENU
  1
.
  9
$ELEVATION
 40
0.0
  9
$PELEVATION
 40
0.0
  9
$THICKNESS
 40
0.0
  9
$LIMCHECK
 70
     0
  9
$CHAMFERA
 40
0.0
  9
$CHAMFERB
 40
0.0
  9
$CHAMFERC
 40
0.0
  9
$CHAMFERD
 40
0.0
  9
$SKPOLY
 70
     0
  9
$TDCREATE
 40
2458985.63301206
  9
$TDUCREATE
 40
2458985.50801206
  9
$TDUPDATE
 40
2458985.633012292
  9
$TDUUPDATE
 40
2458985.508012292
  9
$TDINDWG
 40
0.0000000116
  9
$TDUSRTIMER
 40
0.0000000116
  9
$USRTIMER
 70
     1
  9
$ANGBASE
 50
0.0
  9
$ANGDIR
 70
     0
  9
$PDMODE
 70
     0
  9
$PDSIZE
 40
-1.0
  9
$PLINEWID
 40
0.0
  9
$SPLFRAME
 70
     0
  9
$SPLINETYPE
 70
     6
  9
$SPLINESEGS
 70
     8
  9
$HANDSEED
  5
CA
  9
$SURFTAB1
 70
     6
  9
$SURFTAB2
 70
     6
  9
$SURFTYPE
 70
     6
  9
$SURFU
 70
     6
  9
$SURFV
 70
     6
  9
$UCSBASE
  2

  9
$UCSNAME
  2

  9
$UCSORG
 10
0.0
 20
0.0
 30
0.0
  9
$UCSXDIR
 10
1.0
 20
0.0
 30
0.0
  9
$UCSYDIR
 10
0.0
 20
1.0
 30
0.0
  9
$UCSORTHOREF
  2

  9
$UCSORTHOVIEW
 70
     0
  9
$UCSORGTOP
 10
0.0
 20
0.0
 30
0.0
  9
$UCSORGBOTTOM
 10
0.0
 20
0.0
 30
0.0
  9
$UCSORGLEFT
 10
0.0
 20
0.0
 30
0.0
  9
$UCSORGRIGHT
 10
0.0
 20
0.0
 30
0.0
  9
$UCSORGFRONT
 10
0.0
 20
0.0
 30
0.0
  9
$UCSORGBACK
 10
0.0
 20
0.0
 30
0.0
  9
$PUCSBASE
  2

  9
$PUCSNAME
  2

  9
$PUCSORG
 10
0.0
 20
0.0
 30
0.0
  9
$PUCSXDIR
 10
1.0
 20
0.0
 30
0.0
  9
$PUCSYDIR
 10
0.0
 20
1.0
 30
0.0
  9
$PUCSORTHOREF
  2

  9
$PUCSORTHOVIEW
 70
     0
  9
$PUCSORGTOP
 10
0.0
 20
0.0
 30
0.0
  9
$PUCSORGBOTTOM
 10
0.0
 20
0.0
 30
0.0
  9
$PUCSORGLEFT
 10
0.0
 20
0.0
 30
0.0
  9
$PUCSORGRIGHT
 10
0.0
 20
0.0
 30
0.0
  9
$PUCSORGFRONT
 10
0.0
 20
0.0
 30
0.0
  9
$PUCSORGBACK
 10
0.0
 20
0.0
 30
0.0
  9
$USERI1
 70
     0
  9
$USERI2
 70
     0
  9
$USERI3
 70
     0
  9
$USERI4
 70
     0
  9
$USERI5
 70
     0
  9
$USERR1
 40
0.0
  9
$USERR2
 40
0.0
  9
$USERR3
 40
0.0
  9
$USERR4
 40
0.0
  9
$USERR5
 40
0.0
  9
$WORLDVIEW
 70
     1
  9
$SHADEDGE
 70
     3
  9
$SHADEDIF
 70
    70
  9
$TILEMODE
 70
     1
  9
$MAXACTVP
 70
    64
  9
$PINSBASE
 10
0.0
 20
0.0
 30
0.0
  9
$PLIMCHECK
 70
     0
  9
$PEXTMIN
 10
1.0000000000E+20
 20
1.0000000000E+20
 30
1.0000000000E+20
  9
$PEXTMAX
 10
-1.0000000000E+20
 20
-1.0000000000E+20
 30
-1.0000000000E+20
  9
$PLIMMIN
 10
0.0
 20
0.0
  9
$PLIMMAX
 10
420.0
 20
297.0
  9
$UNITMODE
 70
     0
  9
$VISRETAIN
 70
     1
  9
$PLINEGEN
 70
     0
  9
$PSLTSCALE
 70
     1
  9
$TREEDEPTH
 70
  3020
  9
$CMLSTYLE
  2
Standard
  9
$CMLJUST
 70
     0
  9
$CMLSCALE
 40
20.0
  9
$PROXYGRAPHICS
 70
     1
  9
$MEASUREMENT
 70
     1
  9
$CELWEIGHT
370
    -1
  9
$ENDCAPS
280
     0
  9
$JOINSTYLE
280
     0
  9
$LWDISPLAY
290
     1
  9
$INSUNITS
 70
     4
  9
$HYPERLINKBASE
  1

  9
$STYLESHEET
  1

  9
$XEDIT
290
     1
  9
$CEPSNTYPE
380
     0
  9
$PSTYLEMODE
290
     1
  9
$FINGERPRINTGUID
  2
{eaa9a937-efd8-42ed-acdd-734a6af8d739}
  9
$VERSIONGUID
  2
{FAEB1C32-E019-11D5-929B-00C0DF256EC4}
  9
$EXTNAMES
290
     1
  9
$PSVPSCALE
 40
0.0
  9
$OLESTARTUP
290
     0
  0
ENDSEC
  0
SECTION
  2
CLASSES
  0
CLASS
  1
ACDBDICTIONARYWDFLT
  2
AcDbDictionaryWithDefault
  3
ObjectDBX Classes
 90
        0
280
     0
281
     0
  0
CLASS
  1
VISUALSTYLE
  2
AcDbVisualStyle
  3
ObjectDBX Classes
 90
     4095
280
     0
281
     0
  0
CLASS
  1
MATERIAL
  2
AcDbMaterial
  3
ObjectDBX Classes
 90
     1153
280
     0
281
     0
  0
CLASS
  1
SCALE
  2
AcDbScale
  3
ObjectDBX Classes
 90
     1153
280
     0
281
     0
  0
CLASS
  1
TABLESTYLE
  2
AcDbTableStyle
  3
ObjectDBX Classes
 90
     4095
280
     0
281
     0
  0
CLASS
  1
MLEADERSTYLE
  2
AcDbMLeaderStyle
  3
ACDB_MLEADERSTYLE_CLASS
 90
     4095
280
     0
281
     0
  0
CLASS
  1
SUN
  2
AcDbSun
  3
SCENEOE
 90
     1153
280
     0
281
     0
  0
CLASS
  1
ACDBPLACEHOLDER
  2
AcDbPlaceHolder
  3
ObjectDBX Classes
 90
        0
280
     0
281
     0
  0
CLASS
  1
LAYOUT
  2
AcDbLayout
  3
ObjectDBX Classes
 90
        0
280
     0
281
     0
  0
ENDSEC
  0
SECTION
  2
TABLES
  0
TABLE
  2
VPORT
  5
8
330
0
100
AcDbSymbolTable
 70
     1
  0
VPORT
  5
29
330
8
100
AcDbSymbolTableRecord
100
AcDbViewportTableRecord
  2
*Active
 70
     0
 10
0.0
 20
0.0
 11
1.0
 21
1.0
 12
139.7
 22
107.95
 13
0.0
 23
0.0
 14
10.0
 24
10.0
 15
10.0
 25
10.0
 16
0.0
 26
0.0
 36
1.0
 17
0.0
 27
0.0
 37
0.0
 40
215.9
 41
1.2941176471
 42
50.0
 43
0.0
 44
0.0
 50
0.0
 51
0.0
 71
     0
 72
  2000
 73
     1
 74
     3
 75
     0
 76
     0
 77
     0
 78
     0
281
     0
 65
     1
110
0.0
120
0.0
130
0.0
111
1.0
121
0.0
131
0.0
112
0.0
122
1.0
132
0.0
 79
     0
146
0.0
  0
ENDTAB
  0
TABLE
  2
LTYPE
  5
5
330
0
100
AcDbSymbolTable
 70
     6
  0
LTYPE
  5
14
330
5
100
AcDbSymbolTableRecord
100
AcDbLinetypeTableRecord
  2
ByBlock
 70
     0
  3

 72
    65
 73
     0
 40
0.0
  0
LTYPE
  5
15
330
5
100
AcDbSymbolTableRecord
100
AcDbLinetypeTableRecord
  2
ByLayer
 70
     0
  3

 72
    65
 73
     0
 40
0.0
  0
LTYPE
  5
16
330
5
100
AcDbSymbolTableRecord
100
AcDbLinetypeTableRecord
  2
Continuous
 70
     0
  3
Solid line
 72
    65
 73
     0
 40
0.0
  0
LTYPE
  5
6E
330
5
100
AcDbSymbolTableRecord
100
AcDbLinetypeTableRecord
  2
HIDDEN
 70
     0
  3
Hidden __ __ __ __ __ __ __ __ __ __ __ __ __ __
 72
    65
 73
     2
 40
1.905
 49
1.27
 74
     0
 49
-0.635
 74
     0
  0
LTYPE
  5
6F
330
5
100
AcDbSymbolTableRecord
100
AcDbLinetypeTableRecord
  2
PHANTOM
 70
     0
  3
Phantom ______  __  __  ______  __  __  ______
 72
    65
 73
     6
 40
12.7
 49
6.35
 74
     0
 49
-1.27
 74
     0
 49
1.27
 74
     0
 49
-1.27
 74
     0
 49
1.27
 74
     0
 49
-1.27
 74
     0
  0
LTYPE
  5
70
330
5
100
AcDbSymbolTableRecord
100
AcDbLinetypeTableRecord
  2
CENTER
 70
     0
  3
Center ____ _ ____ _ ____ _ ____ _ ____ _ ____
 72
    65
 73
     4
 40
10.16
 49
6.35
 74
     0
 49
-1.27
 74
     0
 49
1.27
 74
     0
 49
-1.27
 74
     0
  0
LTYPE
  5
71
330
5
100
AcDbSymbolTableRecord
100
AcDbLinetypeTableRecord
  2
CENTERX2
 70
     0
  3
Center (2x) ________  __  ________  __  _____
 72
    65
 73
     4
 40
20.32
 49
12.7
 74
     0
 49
-2.54
 74
     0
 49
2.54
 74
     0
 49
-2.54
 74
     0
  0
LTYPE
  5
72
330
5
100
AcDbSymbolTableRecord
100
AcDbLinetypeTableRecord
  2
DOT2
 70
     0
  3
Dot (.5x) ........................................
 72
    65
 73
     2
 40
0.635
 49
0.0
 74
     0
 49
-0.635
 74
     0
  0
ENDTAB
  0
TABLE
  2
LAYER
  5
2
330
0
100
AcDbSymbolTable
 70
    17
  0
LAYER
  5
10
330
2
100
AcDbSymbolTableRecord
100
AcDbLayerTableRecord
  2
0
 70
     0
 62
     7
  6
Continuous
370
    -3
390
F
  0
LAYER
  5
73
330
2
100
AcDbSymbolTableRecord
100
AcDbLayerTableRecord
  2
FORMAT
 70
     0
 62
     7
  6
Continuous
370
    -3
390
F
  0
LAYER
  5
74
330
2
100
AcDbSymbolTableRecord
100
AcDbLayerTableRecord
  2
YARDIMCI_GEOMETRI
 70
     0
 62
    -6
  6
Continuous
290
     0
370
    -3
390
F
  0
LAYER
  5
75
330
2
100
AcDbSymbolTableRecord
100
AcDbLayerTableRecord
  2
SAYFA_CERCEVESI
 70
     0
 62
     7
  6
Continuous
370
    25
390
F
  0
LAYER
  5
76
330
2
100
AcDbSymbolTableRecord
100
AcDbLayerTableRecord
  2
ANTET
 70
     0
 62
     7
  6
Continuous
370
    -3
390
F
  0
LAYER
  5
77
330
2
100
AcDbSymbolTableRecord
100
AcDbLayerTableRecord
  2
OLCU
 70
     0
 62
   150
  6
Continuous
370
    -3
390
F
  0
LAYER
  5
78
330
2
100
AcDbSymbolTableRecord
100
AcDbLayerTableRecord
  2
METIN
 70
     0
 62
    96
  6
Continuous
370
    -3
390
F
  0
LAYER
  5
79
330
2
100
AcDbSymbolTableRecord
100
AcDbLayerTableRecord
  2
BALON
 70
     0
 62
     5
  6
Continuous
370
    -3
390
F
  0
LAYER
  5
7A
330
2
100
AcDbSymbolTableRecord
100
AcDbLayerTableRecord
  2
VURGU
 70
     0
 62
     7
  6
Continuous
370
    -3
390
F
  0
LAYER
  5
7B
330
2
100
AcDbSymbolTableRecord
100
AcDbLayerTableRecord
  2
SILIK
 70
     0
 62
     7
  6
Continuous
370
    -3
390
F
  0
LAYER
  5
7C
330
2
100
AcDbSymbolTableRecord
100
AcDbLayerTableRecord
  2
MODEL
 70
     0
 62
     7
  6
Continuous
370
    -3
390
F
  0
LAYER
  5
7D
330
2
100
AcDbSymbolTableRecord
100
AcDbLayerTableRecord
  2
DETAYLANDıRMA
 70
     0
 62
   190
  6
Continuous
370
    -3
390
F
  0
LAYER
  5
7E
330
2
100
AcDbSymbolTableRecord
100
AcDbLayerTableRecord
  2
TOLERANS
 70
     0
 62
   230
  6
Continuous
370
    -3
390
F
  0
LAYER
  5
7F
330
2
100
AcDbSymbolTableRecord
100
AcDbLayerTableRecord
  2
MERKEZ_CIZGILERI
 70
     0
 62
    30
  6
Continuous
370
    -3
390
F
  0
LAYER
  5
80
330
2
100
AcDbSymbolTableRecord
100
AcDbLayerTableRecord
  2
KESIT-DETAY_CIZGILERI
 70
     0
 62
     7
  6
Continuous
370
    -3
390
F
  0
LAYER
  5
81
330
2
100
AcDbSymbolTableRecord
100
AcDbLayerTableRecord
  2
\U+041E\U+0421\U+0415\U+0412\U+042B\U+0415
 70
     0
 62
     7
  6
Continuous
370
    -3
390
F
  0
LAYER
  5
82
330
2
100
AcDbSymbolTableRecord
100
AcDbLayerTableRecord
  2
\U+0412\U+041E\U+0414\U+042F\U+041D\U+042B\U+0415_\U+0417\U+041D\U+0410\U+041A\U+0418
 70
     0
 62
    11
  6
Continuous
370
    -3
390
F
  0
ENDTAB
  0
TABLE
  2
STYLE
  5
3
330
0
100
AcDbSymbolTable
 70
     1
  0
STYLE
  5
11
330
3
100
AcDbSymbolTableRecord
100
AcDbTextStyleTableRecord
  2
Standard
 70
     0
 40
0.0
 41
1.0
 50
0.0
 71
     0
 42
3.5
  3
txt
  4

  0
ENDTAB
  0
TABLE
  2
VIEW
  5
6
330
0
100
AcDbSymbolTable
 70
     0
  0
ENDTAB
  0
TABLE
  2
UCS
  5
7
330
0
100
AcDbSymbolTable
 70
     0
  0
ENDTAB
  0
TABLE
  2
APPID
  5
9
330
0
100
AcDbSymbolTable
 70
     1
  0
APPID
  5
12
330
9
100
AcDbSymbolTableRecord
100
AcDbRegAppTableRecord
  2
ACAD
 70
     0
  0
ENDTAB
  0
TABLE
  2
DIMSTYLE
  5
A
330
0
100
AcDbSymbolTable
 70
     1
100
AcDbDimStyleTable
  0
DIMSTYLE
105
27
330
A
100
AcDbSymbolTableRecord
100
AcDbDimStyleTableRecord
  2
ISO-25
 70
     0
 41
2.5
 42
0.625
 43
3.75
 44
1.25
 73
     0
 74
     0
 77
     1
 78
     8
140
2.5
141
2.5
143
0.0393700787
147
0.625
171
     3
172
     1
178
     0
271
     2
272
     2
274
     3
278
    44
283
     0
284
     8
340
11
  0
ENDTAB
  0
TABLE
  2
BLOCK_RECORD
  5
1
330
0
100
AcDbSymbolTable
 70
     2
  0
BLOCK_RECORD
  5
1F
330
1
100
AcDbSymbolTableRecord
100
AcDbBlockTableRecord
  2
*Model_Space
340
22
  0
BLOCK_RECORD
  5
1B
330
1
100
AcDbSymbolTableRecord
100
AcDbBlockTableRecord
  2
*Paper_Space
340
1E
  0
BLOCK_RECORD
  5
23
330
1
100
AcDbSymbolTableRecord
100
AcDbBlockTableRecord
  2
*Paper_Space0
340
26
  0
BLOCK_RECORD
  5
87
330
1
100
AcDbSymbolTableRecord
100
AcDbBlockTableRecord
  2
SW_CENTERMARKSYMBOL_0
340
0
102
{BLKREFS
331
92
102
}
  0
ENDTAB
  0
ENDSEC
  0
SECTION
  2
BLOCKS
  0
BLOCK
  5
20
330
1F
100
AcDbEntity
  8
0
100
AcDbBlockBegin
  2
*Model_Space
 70
     0
 10
0.0
 20
0.0
 30
0.0
  3
*Model_Space
  1

  0
ENDBLK
  5
21
330
1F
100
AcDbEntity
  8
0
100
AcDbBlockEnd
  0
BLOCK
  5
1C
330
1B
100
AcDbEntity
 67
     1
  8
0
100
AcDbBlockBegin
  2
*Paper_Space
 70
     0
 10
0.0
 20
0.0
 30
0.0
  3
*Paper_Space
  1

  0
ENDBLK
  5
1D
330
1B
100
AcDbEntity
 67
     1
  8
0
100
AcDbBlockEnd
  0
BLOCK
  5
24
330
23
100
AcDbEntity
  8
0
100
AcDbBlockBegin
  2
*Paper_Space0
 70
     0
 10
0.0
 20
0.0
 30
0.0
  3
*Paper_Space0
  1

  0
ENDBLK
  5
25
330
23
100
AcDbEntity
  8
0
100
AcDbBlockEnd
  0
BLOCK
  5
88
330
87
100
AcDbEntity
  8
0
100
AcDbBlockBegin
  2
SW_CENTERMARKSYMBOL_0
 70
     0
 10
0.0
 20
0.0
 30
0.0
  3
SW_CENTERMARKSYMBOL_0
  1

  0
LINE
  5
8A
330
87
100
AcDbEntity
  8
FORMAT
 62
     0
100
AcDbLine
 10
0.0
 20
0.0
 30
0.0
 11
0.0
 21
2.5
 31
0.0
  0
LINE
  5
8B
330
87
100
AcDbEntity
  8
FORMAT
 62
     0
100
AcDbLine
 10
0.0
 20
0.0
 30
0.0
 11
-2.5
 21
0.0
 31
0.0
  0
LINE
  5
8C
330
87
100
AcDbEntity
  8
FORMAT
 62
     0
100
AcDbLine
 10
0.0
 20
0.0
 30
0.0
 11
0.0
 21
-2.5
 31
0.0
  0
LINE
  5
8D
330
87
100
AcDbEntity
  8
FORMAT
 62
     0
100
AcDbLine
 10
0.0
 20
0.0
 30
0.0
 11
2.5
 21
0.0
 31
0.0
  0
LINE
  5
8E
330
87
100
AcDbEntity
  8
FORMAT
 62
     0
100
AcDbLine
 10
0.0
 20
5.0
 30
0.0
 11
0.0
 21
63.5
 31
0.0
  0
LINE
  5
8F
330
87
100
AcDbEntity
  8
FORMAT
 62
     0
100
AcDbLine
 10
-5.0
 20
0.0
 30
0.0
 11
-63.5
 21
0.0
 31
0.0
  0
LINE
  5
90
330
87
100
AcDbEntity
  8
FORMAT
 62
     0
100
AcDbLine
 10
0.0
 20
-5.0
 30
0.0
 11
0.0
 21
-63.5
 31
0.0
  0
LINE
  5
91
330
87
100
AcDbEntity
  8
FORMAT
 62
     0
100
AcDbLine
 10
5.0
 20
0.0
 30
0.0
 11
63.5
 21
0.0
 31
0.0
  0
ENDBLK
  5
89
330
87
100
AcDbEntity
  8
0
100
AcDbBlockEnd
  0
ENDSEC
  0
SECTION
  2
ENTITIES
  0
CIRCLE
  5
83
330
1F
100
AcDbEntity
  8
0
  6
Continuous
 62
     7
370
    25
100
AcDbCircle
 10
142.9934680851
 20
119.1714893617
 30
0.0
 40
37.5
  0
CIRCLE
  5
84
330
1F
100
AcDbEntity
  8
0
  6
Continuous
 62
     7
370
    25
100
AcDbCircle
 10
142.9934680851
 20
119.1714893617
 30
0.0
 40
30.7
  0
CIRCLE
  5
85
330
1F
100
AcDbEntity
  8
0
  6
Continuous
 62
     7
370
    25
100
AcDbCircle
 10
142.9934680851
 20
119.1714893617
 30
0.0
 40
45.99999999999999
  0
CIRCLE
  5
86
330
1F
100
AcDbEntity
  8
0
  6
Continuous
 62
     7
370
    25
100
AcDbCircle
 10
142.9934680851
 20
119.1714893617
 30
0.0
 40
60.99999999999999
  0
INSERT
  5
92
330
1F
100
AcDbEntity
  8
FORMAT
 62
     7
100
AcDbBlockReference
  2
SW_CENTERMARKSYMBOL_0
 10
142.9934680851
 20
119.1714893617
 30
0.0
  0
LINE
  5
93
330
1F
100
AcDbEntity
  8
0
  6
Continuous
 62
     7
370
    25
100
AcDbLine
 10
203.9934680851
 20
211.9395924061
 30
0.0
 11
203.9934680851
 21
227.9395924061
 31
0.0
  0
LINE
  5
94
330
1F
100
AcDbEntity
  8
0
  6
Continuous
 62
     7
370
    25
100
AcDbLine
 10
81.9934680851
 20
227.9395924061
 30
0.0
 11
81.9934680851
 21
211.9395924061
 31
0.0
  0
LINE
  5
95
330
1F
100
AcDbEntity
  8
0
  6
Continuous
 62
     7
370
    25
100
AcDbLine
 10
188.9934680851
 20
227.9395924061
 30
0.0
 11
180.4934680851
 21
244.9395924061
 31
0.0
  0
LINE
  5
96
330
1F
100
AcDbEntity
  8
0
  6
Continuous
 62
     7
370
    25
100
AcDbLine
 10
105.4934680851
 20
244.9395924061
 30
0.0
 11
96.9934680851
 21
227.9395924061
 31
0.0
  0
LINE
  5
97
330
1F
100
AcDbEntity
  8
0
  6
Continuous
 62
     7
370
    25
100
AcDbLine
 10
180.4934680851
 20
244.9395924061
 30
0.0
 11
180.4934680851
 21
341.9395924061
 31
0.0
  0
LINE
  5
98
330
1F
100
AcDbEntity
  8
0
  6
Continuous
 62
     7
370
    25
100
AcDbLine
 10
105.4934680851
 20
341.9395924061
 30
0.0
 11
105.4934680851
 21
244.9395924061
 31
0.0
  0
LINE
  5
99
330
1F
100
AcDbEntity
  8
0
  6
Continuous
 62
     7
370
    25
100
AcDbLine
 10
203.9934680851
 20
211.9395924061
 30
0.0
 11
81.9934680851
 21
211.9395924061
 31
0.0
  0
LINE
  5
9A
330
1F
100
AcDbEntity
  8
0
  6
Continuous
 62
     7
370
    25
100
AcDbLine
 10
203.9934680851
 20
227.9395924061
 30
0.0
 11
81.9934680851
 21
227.9395924061
 31
0.0
  0
LINE
  5
9B
330
1F
100
AcDbEntity
  8
0
  6
Continuous
 62
     7
370
    25
100
AcDbLine
 10
180.4934680851
 20
244.9395924061
 30
0.0
 11
105.4934680851
 21
244.9395924061
 31
0.0
  0
LINE
  5
9C
330
1F
100
AcDbEntity
  8
0
  6
Continuous
 62
     7
370
    25
100
AcDbLine
 10
180.4934680851
 20
341.9395924061
 30
0.0
 11
105.4934680851
 21
341.9395924061
 31
0.0
  0
LINE
  5
9D
330
1F
100
AcDbEntity
  8
0
  6
Continuous
 62
     7
370
    25
100
AcDbLine
 10
45.3108557457
 20
180.1714893617
 30
0.0
 11
29.3108557457
 21
180.1714893617
 31
0.0
  0
LINE
  5
9E
330
1F
100
AcDbEntity
  8
0
  6
Continuous
 62
     7
370
    25
100
AcDbLine
 10
29.3108557457
 20
58.1714893617
 30
0.0
 11
45.3108557457
 21
58.1714893617
 31
0.0
  0
LINE
  5
9F
330
1F
100
AcDbEntity
  8
0
  6
Continuous
 62
     7
370
    25
100
AcDbLine
 10
29.3108557457
 20
165.1714893617
 30
0.0
 11
12.3108557457
 21
156.6714893617
 31
0.0
  0
LINE
  5
A0
330
1F
100
AcDbEntity
  8
0
  6
Continuous
 62
     7
370
    25
100
AcDbLine
 10
12.3108557457
 20
81.6714893617
 30
0.0
 11
29.3108557457
 21
73.1714893617
 31
0.0
  0
LINE
  5
A1
330
1F
100
AcDbEntity
  8
0
  6
Continuous
 62
     7
370
    25
100
AcDbLine
 10
12.3108557457
 20
156.6714893617
 30
0.0
 11
-84.6891442543
 21
156.6714893617
 31
0.0
  0
LINE
  5
A2
330
1F
100
AcDbEntity
  8
0
  6
Continuous
 62
     7
370
    25
100
AcDbLine
 10
-84.6891442543
 20
81.6714893617
 30
0.0
 11
12.3108557457
 21
81.6714893617
 31
0.0
  0
LINE
  5
A3
330
1F
100
AcDbEntity
  8
0
  6
Continuous
 62
     7
370
    25
100
AcDbLine
 10
45.3108557457
 20
180.1714893617
 30
0.0
 11
45.3108557457
 21
58.1714893617
 31
0.0
  0
LINE
  5
A4
330
1F
100
AcDbEntity
  8
0
  6
Continuous
 62
     7
370
    25
100
AcDbLine
 10
29.3108557457
 20
180.1714893617
 30
0.0
 11
29.3108557457
 21
58.1714893617
 31
0.0
  0
LINE
  5
A5
330
1F
100
AcDbEntity
  8
0
  6
Continuous
 62
     7
370
    25
100
AcDbLine
 10
12.3108557457
 20
156.6714893617
 30
0.0
 11
12.3108557457
 21
81.6714893617
 31
0.0
  0
LINE
  5
A6
330
1F
100
AcDbEntity
  8
0
  6
Continuous
 62
     7
370
    25
100
AcDbLine
 10
-84.6891442543
 20
156.6714893617
 30
0.0
 11
-84.6891442543
 21
81.6714893617
 31
0.0
  0
LINE
  5
A7
330
1F
100
AcDbEntity
  8
0
  6
Continuous
 62
     7
370
    25
100
AcDbLine
 10
254.2938217967
 20
58.1714893617
 30
0.0
 11
270.2938217967
 21
58.1714893617
 31
0.0
  0
LINE
  5
A8
330
1F
100
AcDbEntity
  8
0
  6
Continuous
 62
     7
370
    25
100
AcDbLine
 10
270.2938217967
 20
180.1714893617
 30
0.0
 11
254.2938217967
 21
180.1714893617
 31
0.0
  0
LINE
  5
A9
330
1F
100
AcDbEntity
  8
0
  6
Continuous
 62
     7
370
    25
100
AcDbLine
 10
270.2938217967
 20
73.1714893617
 30
0.0
 11
287.2938217967
 21
81.6714893617
 31
0.0
  0
LINE
  5
AA
330
1F
100
AcDbEntity
  8
0
  6
Continuous
 62
     7
370
    25
100
AcDbLine
 10
287.2938217967
 20
156.6714893617
 30
0.0
 11
270.2938217967
 21
165.1714893617
 31
0.0
  0
LINE
  5
AB
330
1F
100
AcDbEntity
  8
0
  6
Continuous
 62
     7
370
    25
100
AcDbLine
 10
287.2938217967
 20
81.6714893617
 30
0.0
 11
384.2938217967
 21
81.6714893617
 31
0.0
  0
LINE
  5
AC
330
1F
100
AcDbEntity
  8
0
  6
Continuous
 62
     7
370
    25
100
AcDbLine
 10
384.2938217967
 20
156.6714893617
 30
0.0
 11
287.2938217967
 21
156.6714893617
 31
0.0
  0
LINE
  5
AD
330
1F
100
AcDbEntity
  8
0
  6
Continuous
 62
     7
370
    25
100
AcDbLine
 10
254.2938217967
 20
119.1714893617
 30
0.0
 11
254.2938217967
 21
180.1714893617
 31
0.0
  0
LINE
  5
AE
330
1F
100
AcDbEntity
  8
0
  6
Continuous
 62
     7
370
    25
100
AcDbLine
 10
254.2938217967
 20
58.1714893617
 30
0.0
 11
254.2938217967
 21
119.1714893617
 31
0.0
  0
LINE
  5
AF
330
1F
100
AcDbEntity
  8
0
  6
Continuous
 62
     7
370
    25
100
AcDbLine
 10
270.2938217967
 20
119.1714893617
 30
0.0
 11
270.2938217967
 21
180.1714893617
 31
0.0
  0
LINE
  5
B0
330
1F
100
AcDbEntity
  8
0
  6
Continuous
 62
     7
370
    25
100
AcDbLine
 10
270.2938217967
 20
58.1714893617
 30
0.0
 11
270.2938217967
 21
119.1714893617
 31
0.0
  0
LINE
  5
B1
330
1F
100
AcDbEntity
  8
0
  6
Continuous
 62
     7
370
    25
100
AcDbLine
 10
287.2938217967
 20
119.1714893617
 30
0.0
 11
287.2938217967
 21
156.6714893617
 31
0.0
  0
LINE
  5
B2
330
1F
100
AcDbEntity
  8
0
  6
Continuous
 62
     7
370
    25
100
AcDbLine
 10
287.2938217967
 20
81.6714893617
 30
0.0
 11
287.2938217967
 21
119.1714893617
 31
0.0
  0
LINE
  5
B3
330
1F
100
AcDbEntity
  8
0
  6
Continuous
 62
     7
370
    25
100
AcDbLine
 10
384.2938217967
 20
119.1714893617
 30
0.0
 11
384.2938217967
 21
156.6714893617
 31
0.0
  0
LINE
  5
B4
330
1F
100
AcDbEntity
  8
0
  6
Continuous
 62
     7
370
    25
100
AcDbLine
 10
384.2938217967
 20
81.6714893617
 30
0.0
 11
384.2938217967
 21
119.1714893617
 31
0.0
  0
LINE
  5
B5
330
1F
100
AcDbEntity
  8
0
  6
Continuous
 62
     7
370
    25
100
AcDbLine
 10
81.9934680851
 20
27.3609154276
 30
0.0
 11
81.9934680851
 21
11.3609154276
 31
0.0
  0
LINE
  5
B6
330
1F
100
AcDbEntity
  8
0
  6
Continuous
 62
     7
370
    25
100
AcDbLine
 10
203.9934680851
 20
11.3609154276
 30
0.0
 11
203.9934680851
 21
27.3609154276
 31
0.0
  0
LINE
  5
B7
330
1F
100
AcDbEntity
  8
0
  6
Continuous
 62
     7
370
    25
100
AcDbLine
 10
96.9934680851
 20
11.3609154276
 30
0.0
 11
105.4934680851
 21
-5.6390845724
 31
0.0
  0
LINE
  5
B8
330
1F
100
AcDbEntity
  8
0
  6
Continuous
 62
     7
370
    25
100
AcDbLine
 10
180.4934680851
 20
-5.6390845724
 30
0.0
 11
188.9934680851
 21
11.3609154276
 31
0.0
  0
LINE
  5
B9
330
1F
100
AcDbEntity
  8
0
  6
Continuous
 62
     7
370
    25
100
AcDbLine
 10
105.4934680851
 20
-5.6390845724
 30
0.0
 11
105.4934680851
 21
-102.6390845724
 31
0.0
  0
LINE
  5
BA
330
1F
100
AcDbEntity
  8
0
  6
Continuous
 62
     7
370
    25
100
AcDbLine
 10
180.4934680851
 20
-102.6390845724
 30
0.0
 11
180.4934680851
 21
-5.6390845724
 31
0.0
  0
LINE
  5
BB
330
1F
100
AcDbEntity
  8
0
  6
Continuous
 62
     7
370
    25
100
AcDbLine
 10
81.9934680851
 20
27.3609154276
 30
0.0
 11
203.9934680851
 21
27.3609154276
 31
0.0
  0
LINE
  5
BC
330
1F
100
AcDbEntity
  8
0
  6
Continuous
 62
     7
370
    25
100
AcDbLine
 10
81.9934680851
 20
11.3609154276
 30
0.0
 11
203.9934680851
 21
11.3609154276
 31
0.0
  0
LINE
  5
BD
330
1F
100
AcDbEntity
  8
0
  6
Continuous
 62
     7
370
    25
100
AcDbLine
 10
105.4934680851
 20
-5.6390845724
 30
0.0
 11
180.4934680851
 21
-5.6390845724
 31
0.0
  0
LINE
  5
BE
330
1F
100
AcDbEntity
  8
0
  6
Continuous
 62
     7
370
    25
100
AcDbLine
 10
105.4934680851
 20
-102.6390845724
 30
0.0
 11
180.4934680851
 21
-102.6390845724
 31
0.0
  0
LINE
  5
BF
330
1F
100
AcDbEntity
  8
0
  6
Continuous
 62
     7
370
    25
100
AcDbLine
 10
312.7888065976
 20
-12.3514902766
 30
0.0
 11
267.5193538714
 21
-56.5358639366
 31
0.0
  0
LINE
  5
C0
330
1F
100
AcDbEntity
  8
0
  6
Continuous
 62
     7
370
    25
100
AcDbLine
 10
319.9052157702
 20
-110.2082169046
 30
0.0
 11
365.1746684964
 21
-66.0238432446
 31
0.0
  0
LINE
  5
C1
330
1F
100
AcDbEntity
  8
0
  6
Continuous
 62
     7
370
    25
100
AcDbLine
 10
311.775517704
 20
19.4976442112
 30
0.0
 11
304.3083914811
 21
12.2095001023
 31
0.0
  0
LINE
  5
C2
330
1F
100
AcDbEntity
  8
0
  6
Continuous
 62
     7
370
    25
100
AcDbLine
 10
389.5227268365
 20
-75.0975273922
 30
0.0
 11
396.9898530594
 21
-67.8093832834
 31
0.0
  0
LWPOLYLINE
  5
C3
330
1F
100
AcDbEntity
  8
0
  6
Continuous
 62
     7
370
    25
100
AcDbPolyline
 90
      101
 70
   128
 43
0.0
 10
260.5466052579
 20
-74.35831937
 10
260.6120501505
 20
-72.3577816344
 10
260.8081265474
 20
-70.4007121464
 10
261.1340606244
 20
-68.494834565
 10
261.5885660688
 20
-66.6476705184
 10
262.1698491552
 20
-64.8665099191
 10
262.8756158247
 20
-63.1583821944
 10
263.7030807389
 20
-61.5300285439
 10
264.6489782716
 20
-59.9878753357
 10
265.7095753976
 20
-58.5380087438
 10
266.8806864244
 20
-57.1861507294
 10
268.1576895119
 20
-55.9376364583
 10
269.5355449123
 20
-54.7973932462
 10
271.0088148599
 20
-53.7699211119
 10
272.5716850311
 20
-52.8592750186
 10
274.2179874915
 20
-52.0690488704
 10
275.9412250373
 20
-51.4023613289
 10
277.7345968373
 20
-50.8618435051
 10
279.5910252722
 20
-50.4496285762
 10
281.5031838672
 20
-50.1673433659
 10
283.4635262059
 20
-50.0161019251
 10
285.4643157126
 20
-49.9965011347
 10
287.4976561852
 20
-50.1086183501
 10
289.5555229578
 20
-50.3520110957
 10
291.6297945705
 20
-50.7257188116
 10
293.7122848208
 20
-51.2282666443
 10
295.7947750711
 20
-51.857671267
 10
297.8690466838
 20
-52.6114487071
 10
299.9269134564
 20
-53.4866241496
 10
301.9602539291
 20
-54.4797436768
 10
303.9610434357
 20
-55.5868878995
 10
305.9213857744
 20
-56.8036874255
 10
307.8335443694
 20
-58.1253401028
 10
309.6899728043
 20
-59.5466299721
 10
311.4833446043
 20
-61.0619478517
 10
313.2065821501
 20
-62.6653134741
 10
314.8528846105
 20
-64.3503990878
 10
316.4157547818
 20
-66.1105544296
 10
317.8890247293
 20
-67.9388329707
 10
319.2668801297
 20
-69.8280193308
 10
320.5438832172
 20
-71.7706577544
 10
321.714994244
 20
-73.7590815353
 10
322.77559137
 20
-75.7854432731
 10
323.7214889027
 20
-77.8417458439
 10
324.5489538169
 20
-79.9198739609
 10
325.2547204865
 20
-82.0116262017
 10
325.8360035728
 20
-84.1087473759
 10
326.2905090172
 20
-86.2029611044
 10
326.6164430942
 20
-88.2860024822
 10
326.8125194911
 20
-90.3496506967
 10
326.8779643837
 20
-92.3857614713
 10
326.8125194911
 20
-94.3862992068
 10
326.6164430942
 20
-96.3433686949
 10
326.2905090172
 20
-98.2492462763
 10
325.8360035728
 20
-100.0964103229
 10
325.2547204865
 20
-101.8775709222
 10
324.5489538169
 20
-103.5856986469
 10
323.7214889027
 20
-105.2140522974
 10
322.77559137
 20
-106.7562055056
 10
321.714994244
 20
-108.2060720975
 10
320.5438832172
 20
-109.5579301119
 10
319.2668801297
 20
-110.8064443829
 10
317.8890247293
 20
-111.9466875951
 10
316.4157547818
 20
-112.9741597294
 10
314.8528846105
 20
-113.8848058227
 10
313.2065821501
 20
-114.6750319709
 10
311.4833446043
 20
-115.3417195124
 10
309.6899728043
 20
-115.8822373361
 10
307.8335443694
 20
-116.2944522651
 10
305.9213857744
 20
-116.5767374754
 10
303.9610434357
 20
-116.7279789161
 10
301.9602539291
 20
-116.7475797065
 10
299.9269134564
 20
-116.6354624912
 10
297.8690466838
 20
-116.3920697456
 10
295.7947750711
 20
-116.0183620296
 10
293.7122848208
 20
-115.515814197
 10
291.6297945705
 20
-114.8864095743
 10
289.5555229578
 20
-114.1326321341
 10
287.4976561852
 20
-113.2574566917
 10
285.4643157126
 20
-112.2643371645
 10
283.4635262059
 20
-111.1571929417
 10
281.5031838672
 20
-109.9403934158
 10
279.5910252722
 20
-108.6187407385
 10
277.7345968373
 20
-107.1974508692
 10
275.9412250373
 20
-105.6821329896
 10
274.2179874915
 20
-104.0787673672
 10
272.5716850311
 20
-102.3936817535
 10
271.0088148599
 20
-100.6335264116
 10
269.5355449123
 20
-98.8052478706
 10
268.1576895119
 20
-96.9160615105
 10
266.8806864244
 20
-94.9734230869
 10
265.7095753976
 20
-92.984999306
 10
264.6489782716
 20
-90.9586375681
 10
263.7030807389
 20
-88.9023349973
 10
262.8756158247
 20
-86.8242068804
 10
262.1698491552
 20
-84.7324546396
 10
261.5885660688
 20
-82.6353334654
 10
261.1340606244
 20
-80.5411197369
 10
260.8081265474
 20
-78.4580783591
 10
260.6120501505
 20
-76.3944301445
 10
260.5466052579
 20
-74.35831937
  0
LWPOLYLINE
  5
C4
330
1F
100
AcDbEntity
  8
0
  6
Continuous
 62
     7
370
    25
100
AcDbPolyline
 90
       91
 70
   128
 43
0.0
 10
266.5606484853
 20
-75.9928074538
 10
266.6267885068
 20
-74.1751387675
 10
266.8248863437
 20
-72.4022764615
 10
267.1539768832
 20
-70.6828577429
 10
267.6124568294
 20
-69.0252594467
 10
268.1980925141
 20
-67.4375572253
 10
268.908030779
 20
-65.9274862044
 10
269.7388128762
 20
-64.502403298
 10
270.686391319
 20
-63.1692513669
 10
271.7461496003
 20
-61.9345253934
 10
272.9129246844
 20
-60.8042408381
 10
274.1810321604
 20
-59.7839043339
 10
275.544293936
 20
-58.8784868577
 10
276.996068337
 20
-58.0923995123
 10
278.5292824644
 20
-57.4294720363
 10
280.1364666531
 20
-56.8929341458
 10
281.8097908632
 20
-56.4853997994
 10
283.5411028275
 20
-56.2088544634
 10
285.3219677681
 20
-56.064645439
 10
287.1437094899
 20
-56.053475298
 10
288.9974526505
 20
-56.1753984602
 10
290.8741659995
 20
-56.4298209283
 10
292.7647063781
 20
-56.8155031815
 10
294.6598632636
 20
-57.3305662147
 10
296.5504036422
 20
-57.9725006925
 10
298.4271169911
 20
-58.7381791748
 10
300.2808601517
 20
-59.6238713528
 10
302.1026018736
 20
-60.6252622234
 10
303.8834668141
 20
-61.7374731108
 10
305.6147787784
 20
-62.9550854355
 10
307.2881029886
 20
-64.2721671126
 10
308.8952871772
 20
-65.6823014525
 10
310.4285013046
 20
-67.1786184225
 10
311.8802757056
 20
-68.7538281168
 10
313.2435374813
 20
-70.4002562719
 10
314.5116449572
 20
-72.1098816555
 10
315.6784200413
 20
-73.8743751446
 10
316.7381783227
 20
-75.6851403041
 10
317.6857567654
 20
-77.5333552684
 10
318.5165388627
 20
-79.4100157198
 10
319.2264771275
 20
-81.3059787573
 10
319.8121128122
 20
-83.2120074395
 10
320.2705927584
 20
-85.1188157863
 10
320.5996832979
 20
-87.0171140192
 10
320.7977811348
 20
-88.8976538198
 10
320.8639211563
 20
-90.7512733874
 10
320.7977811348
 20
-92.5689420738
 10
320.5996832979
 20
-94.3418043798
 10
320.2705927584
 20
-96.0612230984
 10
319.8121128122
 20
-97.7188213946
 10
319.2264771275
 20
-99.3065236159
 10
318.5165388627
 20
-100.8165946369
 10
317.6857567654
 20
-102.2416775433
 10
316.7381783227
 20
-103.5748294743
 10
315.6784200413
 20
-104.8095554479
 10
314.5116449572
 20
-105.9398400032
 10
313.2435374813
 20
-106.9601765073
 10
311.8802757056
 20
-107.8655939836
 10
310.4285013046
 20
-108.651681329
 10
308.8952871772
 20
-109.3146088049
 10
307.2881029886
 20
-109.8511466955
 10
305.6147787784
 20
-110.2586810419
 10
303.8834668141
 20
-110.5352263779
 10
302.1026018736
 20
-110.6794354023
 10
300.2808601517
 20
-110.6906055433
 10
298.4271169911
 20
-110.5686823811
 10
296.5504036422
 20
-110.314259913
 10
294.6598632636
 20
-109.9285776598
 10
292.764706378
 20
-109.4135146266
 10
290.8741659995
 20
-108.7715801488
 10
288.9974526505
 20
-108.0059016665
 10
287.1437094899
 20
-107.1202094885
 10
285.3219677681
 20
-106.1188186179
 10
283.5411028275
 20
-105.0066077304
 10
281.8097908632
 20
-103.7889954058
 10
280.1364666531
 20
-102.4719137287
 10
278.5292824644
 20
-101.0617793888
 10
276.996068337
 20
-99.5654624187
 10
275.544293936
 20
-97.9902527245
 10
274.1810321604
 20
-96.3438245694
 10
272.9129246844
 20
-94.6341991858
 10
271.7461496003
 20
-92.8697056967
 10
270.686391319
 20
-91.0589405372
 10
269.7388128762
 20
-89.2107255729
 10
268.908030779
 20
-87.3340651215
 10
268.1980925141
 20
-85.438102084
 10
267.6124568294
 20
-83.5320734018
 10
267.1539768832
 20
-81.625265055
 10
266.8248863437
 20
-79.7269668221
 10
266.6267885068
 20
-77.8464270215
 10
266.5606484853
 20
-75.9928074538
  0
LWPOLYLINE
  5
C5
330
1F
100
AcDbEntity
  8
0
  6
Continuous
 62
     7
370
    25
100
AcDbPolyline
 90
       52
 70
   128
 43
0.0
 10
312.7888065976
 20
-12.3514902766
 10
313.4271422381
 20
-11.7532627983
 10
314.8049976386
 20
-10.6130195862
 10
316.2782675861
 20
-9.5855474519
 10
317.8411377573
 20
-8.6749013586
 10
319.4874402177
 20
-7.8846752104
 10
321.2106777635
 20
-7.2179876688
 10
323.0040495635
 20
-6.6774698451
 10
324.8604779985
 20
-6.2652549161
 10
326.7726365934
 20
-5.9829697059
 10
328.7329789321
 20
-5.8317282651
 10
330.7337684388
 20
-5.8121274747
 10
332.7671089114
 20
-5.92424469
 10
334.824975684
 20
-6.1676374357
 10
336.8992472967
 20
-6.5413451516
 10
338.981737547
 20
-7.0438929843
 10
341.0642277973
 20
-7.673297607
 10
343.13849941
 20
-8.4270750471
 10
345.1963661827
 20
-9.3022504896
 10
347.2297066553
 20
-10.2953700168
 10
349.230496162
 20
-11.4025142395
 10
351.1908385006
 20
-12.6193137655
 10
353.1029970956
 20
-13.9409664428
 10
354.9594255305
 20
-15.3622563121
 10
356.7527973305
 20
-16.8775741917
 10
358.4760348764
 20
-18.4809398141
 10
360.1223373367
 20
-20.1660254278
 10
361.685207508
 20
-21.9261807696
 10
363.1584774555
 20
-23.7544593107
 10
364.5363328559
 20
-25.6436456707
 10
365.8133359434
 20
-27.5862840944
 10
366.9844469702
 20
-29.5747078753
 10
368.0450440962
 20
-31.6010696131
 10
368.990941629
 20
-33.6573721839
 10
369.8184065431
 20
-35.7355003009
 10
370.5241732127
 20
-37.8272525417
 10
371.105456299
 20
-39.9243737159
 10
371.5599617434
 20
-42.0185874443
 10
371.8858958205
 20
-44.1016288222
 10
372.0819722173
 20
-46.1652770367
 10
372.1474171099
 20
-48.2013878113
 10
372.0819722173
 20
-50.2019255468
 10
371.8858958205
 20
-52.1589950349
 10
371.5599617434
 20
-54.0648726163
 10
371.105456299
 20
-55.9120366629
 10
370.5241732127
 20
-57.6931972621
 10
369.8184065431
 20
-59.4013249869
 10
368.990941629
 20
-61.0296786373
 10
368.0450440962
 20
-62.5718318456
 10
366.9844469702
 20
-64.0216984375
 10
365.8133359434
 20
-65.3735564519
 10
365.1746684964
 20
-66.0238432446
  0
LWPOLYLINE
  5
C6
330
1F
100
AcDbEntity
  8
0
  6
Continuous
 62
     7
370
    25
100
AcDbPolyline
 90
       65
 70
   128
 43
0.0
 10
311.775517704
 20
19.4976442112
 10
312.8649630864
 20
20.5166361878
 10
314.6194623596
 20
21.9888889209
 10
316.4712689026
 20
23.3482176975
 10
318.4158510347
 20
24.5912960123
 10
320.4484500375
 20
25.7150818444
 10
322.5640918005
 20
26.7168251015
 10
324.7575989939
 20
27.59407435
 10
327.0236037381
 20
28.3446828141
 10
329.3565607396
 20
28.9668136289
 10
331.7507608618
 20
29.4589443362
 10
334.2003450957
 20
29.8198706096
 10
336.6993188984
 20
30.0487092021
 10
339.241566862
 20
30.1449001072
 10
341.8208676798
 20
30.1082079298
 10
344.4309093706
 20
29.9387224617
 10
347.0653047249
 20
29.6368584623
 10
349.7176069359
 20
29.2033546434
 10
352.3813253756
 20
28.6392718614
 10
355.0499414785
 20
27.9459905214
 10
357.716924694
 20
27.1252071991
 10
360.3757484672
 20
26.1789304888
 10
363.0199062107
 20
25.1094760882
 10
365.6429272275
 20
23.9194611313
 10
368.2383925456
 20
22.6117977842
 10
370.7999506265
 20
21.1896861183
 10
373.3213329082
 20
19.6566062791
 10
375.7963691459
 20
18.0163099698
 10
378.2190025111
 20
16.2728112704
 10
380.5833044139
 20
14.4303768144
 10
382.8834890116
 20
12.4935153476
 10
385.1139273668
 20
10.4669666946
 10
387.2691612232
 20
8.3556901596
 10
389.3439163624
 20
6.16485239
 10
391.3331155108
 20
3.8998147329
 10
393.2318907649
 20
1.5661201151
 10
395.0355955035
 20
-0.8305205216
 10
396.7398157586
 20
-3.2842421961
 10
398.3403810179
 20
-5.7890402401
 10
399.83337443
 20
-8.3387849932
 10
401.2151423896
 20
-10.9272368027
 10
402.4823034792
 20
-13.5480612932
 10
403.6317567432
 20
-16.194844868
 10
404.6606892768
 20
-18.8611104042
 10
405.5665831098
 20
-21.5403331033
 10
406.347221368
 20
-24.2259564584
 10
407.0006936989
 20
-26.9114082989
 10
407.5254009462
 20
-29.5901168744
 10
407.9200590633
 20
-32.255526936
 10
408.1837022556
 20
-34.9011157787
 10
408.3156853442
 20
-37.5204092032
 10
408.3156853442
 20
-40.1069973597
 10
408.1837022556
 20
-42.6545504334
 10
407.9200590633
 20
-45.1568341351
 10
407.5254009462
 20
-47.6077249573
 10
407.0006936989
 20
-50.0012251594
 10
406.347221368
 20
-52.3314774453
 10
405.5665831098
 20
-54.5927792973
 10
404.6606892768
 20
-56.7795969307
 10
403.6317567432
 20
-58.8865788364
 10
402.4823034792
 20
-60.9085688765
 10
401.2151423896
 20
-62.8406189027
 10
399.83337443
 20
-64.6780008646
 10
398.3403810179
 20
-66.4162183809
 10
396.9898530594
 20
-67.8093832834
  0
LWPOLYLINE
  5
C7
330
1F
100
AcDbEntity
  8
0
  6
Continuous
 62
     7
370
    25
100
AcDbPolyline
 90
       97
 70
   128
 43
0.0
 10
292.9660537365
 20
-16.7816940692
 10
293.0320654766
 20
-14.2138378372
 10
293.2299391551
 20
-11.6881467326
 10
293.5591905418
 20
-9.2108015448
 10
294.0190139036
 20
-6.7878647528
 10
294.6082839756
 20
-4.4252656887
 10
295.3255587152
 20
-2.1287860285
 10
296.1690828309
 20
0.0959543574
 10
297.1367920778
 20
2.2435111564
 10
298.2263183092
 20
4.3086289371
 10
299.434995272
 20
6.2862540103
 10
300.7598651309
 20
8.171546796
 10
302.1976857076
 20
9.9598936669
 10
303.744938414
 20
11.6469182385
 10
305.3978368635
 20
13.2284920789
 10
307.1523361367
 20
14.700744812
 10
309.0041426798
 20
16.0600735886
 10
310.9487248118
 20
17.3031519034
 10
312.9813238146
 20
18.4269377355
 10
315.0969655776
 20
19.4286809927
 10
317.2904727711
 20
20.3059302412
 10
319.5564775152
 20
21.0565387052
 10
321.8894345167
 20
21.67866952
 10
324.2836346389
 20
22.1708002273
 10
326.7332188729
 20
22.5317265007
 10
329.2321926755
 20
22.7605650932
 10
331.7744406391
 20
22.8567559984
 10
334.353741457
 20
22.820063821
 10
336.9637831478
 20
22.6505783529
 10
339.5981785021
 20
22.3487143535
 10
342.250480713
 20
21.9152105345
 10
344.9141991527
 20
21.3511277525
 10
347.5828152557
 20
20.6578464126
 10
350.2497984711
 20
19.8370630903
 10
352.9086222443
 20
18.8907863799
 10
355.5527799878
 20
17.8213319793
 10
358.1758010046
 20
16.6313170224
 10
360.7712663227
 20
15.3236536754
 10
363.3328244036
 20
13.9015420094
 10
365.8542066854
 20
12.3684621702
 10
368.329242923
 20
10.7281658609
 10
370.7518762882
 20
8.9846671615
 10
373.1161781911
 20
7.1422327055
 10
375.4163627887
 20
5.2053712388
 10
377.6468011439
 20
3.1788225858
 10
379.8020350003
 20
1.0675460507
 10
381.8767901395
 20
-1.1232917189
 10
383.865989288
 20
-3.388329376
 10
385.7647645421
 20
-5.7220239938
 10
387.5684692806
 20
-8.1186646305
 10
389.2726895358
 20
-10.572386305
 10
390.8732547951
 20
-13.077184349
 10
392.3662482071
 20
-15.6269291021
 10
393.7480161667
 20
-18.2153809116
 10
395.0151772563
 20
-20.836205402
 10
396.1646305203
 20
-23.4829889769
 10
397.193563054
 20
-26.1492545131
 10
398.0994568869
 20
-28.8284772122
 10
398.8800951451
 20
-31.5141005672
 10
399.533567476
 20
-34.1995524078
 10
400.0582747233
 20
-36.8782609833
 10
400.4529328404
 20
-39.5436710449
 10
400.7165760327
 20
-42.1892598876
 10
400.8485591213
 20
-44.8085533121
 10
400.8485591213
 20
-47.3951414686
 10
400.7165760327
 20
-49.9426945423
 10
400.4529328404
 20
-52.444978244
 10
400.0582747233
 20
-54.8958690662
 10
399.533567476
 20
-57.2893692683
 10
398.8800951451
 20
-59.6196215542
 10
398.0994568869
 20
-61.8809234062
 10
397.193563054
 20
-64.0677410396
 10
396.1646305203
 20
-66.1747229452
 10
395.0151772563
 20
-68.1967129854
 10
393.7480161667
 20
-70.1287630115
 10
392.3662482071
 20
-71.9661449735
 10
390.8732547951
 20
-73.7043624898
 10
389.2726895358
 20
-75.3391618508
 10
387.5684692806
 20
-76.8665424286
 10
385.7647645421
 20
-78.2827664669
 10
383.865989288
 20
-79.5843682283
 10
381.8767901395
 20
-80.768162475
 10
379.8020350003
 20
-81.8312522642
 10
377.6468011439
 20
-82.771036037
 10
375.4163627887
 20
-83.5852139852
 10
373.1161781911
 20
-84.2717936787
 10
370.7518762882
 20
-84.829094942
 10
368.329242923
 20
-85.2557539656
 10
365.8542066853
 20
-85.5507266433
 10
363.3328244036
 20
-85.7132911275
 10
360.7712663227
 20
-85.7430495958
 10
358.1758010046
 20
-85.6399292241
 10
355.5527799878
 20
-85.4041823653
 10
352.9086222443
 20
-85.0363859315
 10
350.2497984711
 20
-84.5374399821
 10
347.5828152557
 20
-83.9085655216
 10
347.0070394081
 20
-83.7560061892
  0
ARC
  5
C8
330
1F
100
AcDbEntity
  8
0
  6
Continuous
 62
     7
370
    25
100
AcDbCircle
 10
349.4760022036
 20
-16.5042775567
 30
0.0
 40
56.51062940430585
100
AcDbArc
 50
180.2812720252
 51
193.9041129722
  0
LWPOLYLINE
  5
C9
330
1F
100
AcDbEntity
  8
0
  6
Continuous
 62
     7
370
    25
100
AcDbPolyline
 90
       79
 70
   128
 43
0.0
 10
306.2693853578
 20
-18.7146452688
 10
306.2986756876
 20
-18.1542205843
 10
306.4975096451
 20
-15.9646072217
 10
306.8281788792
 20
-13.8254844654
 10
307.2896048155
 20
-11.7438296893
 10
307.8802823784
 20
-9.7264328185
 10
308.5982849007
 20
-7.7798741824
 10
309.4412704073
 20
-5.9105030505
 10
310.4064892547
 20
-4.1244169229
 10
311.4907930996
 20
-2.4274416415
 10
312.6906451682
 20
-0.8251123867
 10
314.0021317926
 20
0.6773443764
 10
315.4209751759
 20
2.075027946
 10
316.942547346
 20
3.3633793691
 10
318.5618852506
 20
4.5381963109
 10
320.2737069461
 20
5.5956467628
 10
322.072428826
 20
6.5322815412
 10
323.9521838333
 20
7.3450455383
 10
325.906840598
 20
8.0312876866
 10
327.9300234359
 20
8.588769607
 10
330.0151331451
 20
9.0156729094
 10
332.1553685312
 20
9.3106051239
 10
334.3437485912
 20
9.4726042429
 10
336.5731352842
 20
9.5011418589
 10
338.8362568141
 20
9.3961248882
 10
341.125731349
 20
9.1578958744
 10
343.4340910988
 20
8.7872318709
 10
345.7538066738
 20
8.2853419067
 10
348.0773116439
 20
7.6538630425
 10
350.3970272189
 20
6.8948550312
 10
352.7053869686
 20
6.010793599
 10
354.9948615036
 20
5.0045623707
 10
357.2579830335
 20
3.8794434633
 10
359.4873697265
 20
2.6391067809
 10
361.6757497865
 20
1.287598044
 10
363.8159851726
 20
-0.170674407
 10
365.9010948818
 20
-1.7309539903
 10
367.9242777197
 20
-3.3881513983
 10
369.8789344843
 20
-5.1368611975
 10
371.7586894917
 20
-6.9713794599
 10
373.5574113715
 20
-8.8857223683
 10
375.2692330671
 20
-10.8736457342
 10
376.8885709717
 20
-12.9286653645
 10
378.4101431417
 20
-15.0440782125
 10
379.8289865251
 20
-17.2129842411
 10
381.1404731494
 20
-19.4283089296
 10
382.3403252181
 20
-21.6828263494
 10
383.424629063
 20
-23.9691827334
 10
384.3898479104
 20
-26.279920462
 10
385.232833417
 20
-28.6075023893
 10
385.9508359392
 20
-30.9443364267
 10
386.5415135022
 20
-33.2828003074
 10
387.0029394385
 20
-35.6152664481
 10
387.3336086725
 20
-37.9341268293
 10
387.5324426301
 20
-40.2318178101
 10
387.598792756
 20
-42.5008448004
 10
387.5324426301
 20
-44.7338067056
 10
387.3336086725
 20
-46.9234200682
 10
387.0029394385
 20
-49.0625428245
 10
386.5415135022
 20
-51.1441976006
 10
385.9508359392
 20
-53.1615944714
 10
385.232833417
 20
-55.1081531075
 10
384.3898479104
 20
-56.9775242394
 10
383.424629063
 20
-58.763610367
 10
382.3403252181
 20
-60.4605856484
 10
381.1404731494
 20
-62.0629149032
 10
379.8289865251
 20
-63.5653716663
 10
378.4101431417
 20
-64.9630552359
 10
376.8885709717
 20
-66.251406659
 10
375.2692330671
 20
-67.4262236008
 10
373.5574113715
 20
-68.4836740527
 10
371.7586894917
 20
-69.4203088312
 10
369.8789344843
 20
-70.2330728282
 10
367.9242777197
 20
-70.9193149765
 10
365.9010948818
 20
-71.4767968969
 10
363.8159851726
 20
-71.9037001993
 10
361.6757497865
 20
-72.1986324138
 10
359.4873697265
 20
-72.3606315328
 10
358.6552472566
 20
-72.3869982367
  0
ENDSEC
  0
SECTION
  2
OBJECTS
  0
DICTIONARY
  5
C
330
0
100
AcDbDictionary
281
     1
  3
ACAD_GROUP
350
D
  3
ACAD_LAYOUT
350
1A
  3
ACAD_MLINESTYLE
350
17
  3
ACAD_PLOTSETTINGS
350
19
  3
ACAD_PLOTSTYLENAME
350
E
  3
ACAD_SCALELIST
350
47
  0
DICTIONARY
  5
D
102
{ACAD_REACTORS
330
C
102
}
330
C
100
AcDbDictionary
281
     1
  0
DICTIONARY
  5
1A
102
{ACAD_REACTORS
330
C
102
}
330
C
100
AcDbDictionary
281
     1
  3
Layout1
350
1E
  3
Layout2
350
26
  3
Model
350
22
  0
DICTIONARY
  5
17
102
{ACAD_REACTORS
330
C
102
}
330
C
100
AcDbDictionary
281
     1
  3
Standard
350
18
  0
DICTIONARY
  5
19
102
{ACAD_REACTORS
330
C
102
}
330
C
100
AcDbDictionary
281
     1
  0
ACDBDICTIONARYWDFLT
  5
E
102
{ACAD_REACTORS
330
C
102
}
330
C
100
AcDbDictionary
281
     1
  3
Normal
350
F
100
AcDbDictionaryWithDefault
340
F
  0
DICTIONARY
  5
47
102
{ACAD_REACTORS
330
C
102
}
330
C
100
AcDbDictionary
281
     1
  3
A0
350
48
  3
A1
350
49
  3
A2
350
4A
  3
A3
350
4B
  3
A4
350
4C
  3
A5
350
4D
  3
A6
350
4E
  3
A7
350
4F
  3
A8
350
50
  3
A9
350
51
  3
B0
350
52
  3
B1
350
53
  3
B2
350
54
  3
B3
350
55
  3
B4
350
56
  3
B5
350
57
  3
B6
350
58
  3
B7
350
59
  3
B8
350
5A
  3
B9
350
5B
  3
C0
350
5C
  3
C1
350
5D
  3
C2
350
5E
  3
C3
350
5F
  3
C4
350
60
  3
C5
350
61
  3
C6
350
62
  3
C7
350
63
  3
C8
350
64
  3
C9
350
65
  3
D0
350
66
  3
D1
350
67
  3
D2
350
68
  0
LAYOUT
  5
1E
102
{ACAD_REACTORS
330
1A
102
}
330
1A
100
AcDbPlotSettings
  1

  2
none_device
  4

  6

 40
0.0
 41
0.0
 42
0.0
 43
0.0
 44
0.0
 45
0.0
 46
0.0
 47
0.0
 48
0.0
 49
0.0
140
0.0
141
0.0
142
1.0
143
1.0
 70
   688
 72
     1
 73
     0
 74
     5
  7

 75
    16
147
1.0
148
0.0
149
0.0
100
AcDbLayout
  1
Layout1
 70
     1
 71
     1
 10
0.0
 20
0.0
 11
420.0
 21
297.0
 12
0.0
 22
0.0
 32
0.0
 14
1.0000000000E+20
 24
1.0000000000E+20
 34
1.0000000000E+20
 15
-1.0000000000E+20
 25
-1.0000000000E+20
 35
-1.0000000000E+20
146
0.0
 13
0.0
 23
0.0
 33
0.0
 16
1.0
 26
0.0
 36
0.0
 17
0.0
 27
1.0
 37
0.0
 76
     0
330
1B
  0
LAYOUT
  5
26
102
{ACAD_REACTORS
330
1A
102
}
330
1A
100
AcDbPlotSettings
  1

  2
none_device
  4

  6

 40
0.0
 41
0.0
 42
0.0
 43
0.0
 44
0.0
 45
0.0
 46
0.0
 47
0.0
 48
0.0
 49
0.0
140
0.0
141
0.0
142
1.0
143
1.0
 70
   688
 72
     1
 73
     0
 74
     5
  7

 75
    16
147
1.0
148
0.0
149
0.0
100
AcDbLayout
  1
Layout2
 70
     1
 71
     2
 10
0.0
 20
0.0
 11
0.0
 21
0.0
 12
0.0
 22
0.0
 32
0.0
 14
0.0
 24
0.0
 34
0.0
 15
0.0
 25
0.0
 35
0.0
146
0.0
 13
0.0
 23
0.0
 33
0.0
 16
1.0
 26
0.0
 36
0.0
 17
0.0
 27
1.0
 37
0.0
 76
     0
330
23
  0
LAYOUT
  5
22
102
{ACAD_REACTORS
330
1A
102
}
330
1A
100
AcDbPlotSettings
  1

  2
none_device
  4
Letter_(8.50_x_11.00_Inches)
  6

 40
6.35
 41
6.35
 42
6.35000508
 43
6.35000508
 44
215.9
 45
279.4
 46
0.0
 47
0.0
 48
0.0
 49
0.0
140
0.0
141
0.0
142
1.0
143
1.0
 70
  1712
 72
     1
 73
     0
 74
     0
  7

 75
     0
147
1.0
148
0.0
149
0.0
100
AcDbLayout
  1
Model
 70
     1
 71
     0
 10
0.0
 20
0.0
 11
279.4
 21
215.9
 12
0.0
 22
0.0
 32
0.0
 14
0.0
 24
0.0
 34
0.0
 15
279.4
 25
215.9
 35
0.0
146
0.0
 13
0.0
 23
0.0
 33
0.0
 16
1.0
 26
0.0
 36
0.0
 17
0.0
 27
1.0
 37
0.0
 76
     0
330
1F
331
29
  0
MLINESTYLE
  5
18
102
{ACAD_REACTORS
330
17
102
}
330
17
100
AcDbMlineStyle
  2
Standard
 70
     0
  3

 62
   256
 51
90.0
 52
90.0
 71
     2
 49
0.5
 62
   256
  6
BYLAYER
 49
-0.5
 62
   256
  6
BYLAYER
  0
ACDBPLACEHOLDER
  5
F
102
{ACAD_REACTORS
330
E
102
}
330
E
  0
SCALE
  5
48
102
{ACAD_REACTORS
330
47
102
}
330
47
100
AcDbScale
 70
     0
300
1:1
140
1.0
141
1.0
290
     1
  0
SCALE
  5
49
102
{ACAD_REACTORS
330
47
102
}
330
47
100
AcDbScale
 70
     0
300
1:2
140
1.0
141
2.0
290
     0
  0
SCALE
  5
4A
102
{ACAD_REACTORS
330
47
102
}
330
47
100
AcDbScale
 70
     0
300
1:4
140
1.0
141
4.0
290
     0
  0
SCALE
  5
4B
102
{ACAD_REACTORS
330
47
102
}
330
47
100
AcDbScale
 70
     0
300
1:5
140
1.0
141
5.0
290
     0
  0
SCALE
  5
4C
102
{ACAD_REACTORS
330
47
102
}
330
47
100
AcDbScale
 70
     0
300
1:8
140
1.0
141
8.0
290
     0
  0
SCALE
  5
4D
102
{ACAD_REACTORS
330
47
102
}
330
47
100
AcDbScale
 70
     0
300
1:10
140
1.0
141
10.0
290
     0
  0
SCALE
  5
4E
102
{ACAD_REACTORS
330
47
102
}
330
47
100
AcDbScale
 70
     0
300
1:16
140
1.0
141
16.0
290
     0
  0
SCALE
  5
4F
102
{ACAD_REACTORS
330
47
102
}
330
47
100
AcDbScale
 70
     0
300
1:20
140
1.0
141
20.0
290
     0
  0
SCALE
  5
50
102
{ACAD_REACTORS
330
47
102
}
330
47
100
AcDbScale
 70
     0
300
1:30
140
1.0
141
30.0
290
     0
  0
SCALE
  5
51
102
{ACAD_REACTORS
330
47
102
}
330
47
100
AcDbScale
 70
     0
300
1:40
140
1.0
141
40.0
290
     0
  0
SCALE
  5
52
102
{ACAD_REACTORS
330
47
102
}
330
47
100
AcDbScale
 70
     0
300
1:50
140
1.0
141
50.0
290
     0
  0
SCALE
  5
53
102
{ACAD_REACTORS
330
47
102
}
330
47
100
AcDbScale
 70
     0
300
1:100
140
1.0
141
100.0
290
     0
  0
SCALE
  5
54
102
{ACAD_REACTORS
330
47
102
}
330
47
100
AcDbScale
 70
     0
300
2:1
140
2.0
141
1.0
290
     0
  0
SCALE
  5
55
102
{ACAD_REACTORS
330
47
102
}
330
47
100
AcDbScale
 70
     0
300
4:1
140
4.0
141
1.0
290
     0
  0
SCALE
  5
56
102
{ACAD_REACTORS
330
47
102
}
330
47
100
AcDbScale
 70
     0
300
8:1
140
8.0
141
1.0
290
     0
  0
SCALE
  5
57
102
{ACAD_REACTORS
330
47
102
}
330
47
100
AcDbScale
 70
     0
300
10:1
140
10.0
141
1.0
290
     0
  0
SCALE
  5
58
102
{ACAD_REACTORS
330
47
102
}
330
47
100
AcDbScale
 70
     0
300
100:1
140
100.0
141
1.0
290
     0
  0
SCALE
  5
59
102
{ACAD_REACTORS
330
47
102
}
330
47
100
AcDbScale
 70
     0
300
1/128" = 1'-0"
140
0.0078125
141
12.0
290
     0
  0
SCALE
  5
5A
102
{ACAD_REACTORS
330
47
102
}
330
47
100
AcDbScale
 70
     0
300
1/64" = 1'-0"
140
0.015625
141
12.0
290
     0
  0
SCALE
  5
5B
102
{ACAD_REACTORS
330
47
102
}
330
47
100
AcDbScale
 70
     0
300
1/32" = 1'-0"
140
0.03125
141
12.0
290
     0
  0
SCALE
  5
5C
102
{ACAD_REACTORS
330
47
102
}
330
47
100
AcDbScale
 70
     0
300
1/16" = 1'-0"
140
0.0625
141
12.0
290
     0
  0
SCALE
  5
5D
102
{ACAD_REACTORS
330
47
102
}
330
47
100
AcDbScale
 70
     0
300
3/32" = 1'-0"
140
0.09375
141
12.0
290
     0
  0
SCALE
  5
5E
102
{ACAD_REACTORS
330
47
102
}
330
47
100
AcDbScale
 70
     0
300
1/8" = 1'-0"
140
0.125
141
12.0
290
     0
  0
SCALE
  5
5F
102
{ACAD_REACTORS
330
47
102
}
330
47
100
AcDbScale
 70
     0
300
3/16" = 1'-0"
140
0.1875
141
12.0
290
     0
  0
SCALE
  5
60
102
{ACAD_REACTORS
330
47
102
}
330
47
100
AcDbScale
 70
     0
300
1/4" = 1'-0"
140
0.25
141
12.0
290
     0
  0
SCALE
  5
61
102
{ACAD_REACTORS
330
47
102
}
330
47
100
AcDbScale
 70
     0
300
3/8" = 1'-0"
140
0.375
141
12.0
290
     0
  0
SCALE
  5
62
102
{ACAD_REACTORS
330
47
102
}
330
47
100
AcDbScale
 70
     0
300
1/2" = 1'-0"
140
0.5
141
12.0
290
     0
  0
SCALE
  5
63
102
{ACAD_REACTORS
330
47
102
}
330
47
100
AcDbScale
 70
     0
300
3/4" = 1'-0"
140
0.75
141
12.0
290
     0
  0
SCALE
  5
64
102
{ACAD_REACTORS
330
47
102
}
330
47
100
AcDbScale
 70
     0
300
1" = 1'-0"
140
1.0
141
12.0
290
     0
  0
SCALE
  5
65
102
{ACAD_REACTORS
330
47
102
}
330
47
100
AcDbScale
 70
     0
300
1-1/2" = 1'-0"
140
1.5
141
12.0
290
     0
  0
SCALE
  5
66
102
{ACAD_REACTORS
330
47
102
}
330
47
100
AcDbScale
 70
     0
300
3" = 1'-0"
140
3.0
141
12.0
290
     0
  0
SCALE
  5
67
102
{ACAD_REACTORS
330
47
102
}
330
47
100
AcDbScale
 70
     0
300
6" = 1'-0"
140
6.0
141
12.0
290
     0
  0
SCALE
  5
68
102
{ACAD_REACTORS
330
47
102
}
330
47
100
AcDbScale
 70
     0
300
1'-0" = 1'-0"
140
12.0
141
12.0
290
     0
  0
ENDSEC
  0
EOF
